Jump to content

Photo

A Star is born


  • Please log in to reply
5 replies to this topic

#1 brisybaby

brisybaby

    Newbie

  • Newbie
  • Pip
  • 1 posts

Posted 15 December 2010 - 06:11 AM

Hey guys.

Just wondered if anyone had the tab or had seen the tab for a Star is Born from the April Uprising album. Saw him play it live in London with mama Kin and would love to play it. Have tried figuring it out but i haven't managed it yet. Im useless at figuring these things out.

Cheers

#2 Hedz

Hedz

    Newbie

  • Newbie
  • PipPipPip
  • 6 posts

Posted 02 January 2011 - 10:13 AM

A Star is born

#3 Hedz

Hedz

    Newbie

  • Newbie
  • PipPipPip
  • 6 posts

Posted 02 January 2011 - 10:14 AM

6 string guitar Standard Tuning

#4 Hedz

Hedz

    Newbie

  • Newbie
  • PipPipPip
  • 6 posts

Posted 02 January 2011 - 10:15 AM

I need 3 posts before I can submit the tab...

#5 Hedz

Hedz

    Newbie

  • Newbie
  • PipPipPip
  • 6 posts

Posted 02 January 2011 - 10:18 AM

A Star is born


John Butler
6 string guitar



00:13          |-3-|            |-3-|                    
     Q    Q    E   Q    Q       E   Q    Q    Q    Q     
E||--------------------------|--------------------------|
B||--------------------------|--------------------------|
G||---------------------2----|--2h--4----2---------2----|
D||-------2----2h--4---------|----------------4---------|
A||--0-----------------------|--------------------------|
E||--------------------------|--------------------------|


            |-3-|            |-3-|                        
  Q    Q    E   Q    Q       E   Q    E   E  E   E  Q     
--------------------------|------------------------------|
--------------------------|------------------------------|
---------------------2----|--2h--4-----------2h--4--2----|
-------2----2h--4---------|-----------2h--4--------------|
--0-----------------------|------------------------------|
--------------------------|------------------------------|


            |-3-|            |-3-|                    
  Q    Q    E   Q    Q       E   Q    Q    Q    Q     
--------------------------|--------------------------|
--------------------------|--------------------------|
---------------------2----|--2h--4----2---------2----|
-------2----2h--4---------|----------------4---------|
--0-----------------------|--------------------------|
--------------------------|--------------------------|


            |-3-|            |-3-|                      01:16       
  Q    Q    E   Q    Q       E   Q    Q    H           Q    Q    Q    Q     
--------------------------|-------------------------|----------------------|
--------------------------|-------------------------|----------------------|
---------------------2----|--2h--4----2-------------|-----------------2----|
-------2----2h--4---------|----------------2--------|-------2----4---------|
--0-----------------------|-------------------------|----------------------|
--------------------------|-------------------------|--0-------------------|


                                                |---3---|                 
  Q    Q    Q    Q       Q    Q    Q    Q       E   E   E  H        Q     
----------------------|----------------------|---------------------------|
----------------------|----------------------|---------------------------|
--4----2---------2----|------------2---------|--5p--4p--2-----------2----|
------------4---------|-------2---------2----|-------------4-------------|
----------------------|----------------------|---------------------------|
----------------------|--3-------------------|---------------------------|

Variations
|-3-|            |-3-|                        
  Q    Q    E   Q    Q       E   Q    E   E  E   E  Q     
--------------------------|------------------------------|
--------------------------|-------------------------2----|
---------------------2----|--2h--4-----------2h--4-------|
-------2----2h--4---------|-----------2h--4--------------|
--0-----------------------|------------------------------|
--------------------------|------------------------------|


            |-3-|            |-3-|                             
  Q    Q    E   Q    Q       E   Q    Q    Q    Q              
--------------------------|--------------------------|-------||
--------------------------|--2h--3----2--------------|-------||
---------------------2----|----------------4----2----|-------||
-------2----2h--4---------|--------------------------|-------||
--0-----------------------|--------------------------|-------||
--------------------------|--------------------------|-------||
Q - quarter
E - 8th

Edited by Hedz, 02 January 2011 - 02:25 PM.


#6 TJHodgson

TJHodgson

    Newbie

  • Newbie
  • Pip
  • 2 posts

Posted 03 January 2011 - 07:41 AM

Hey All! My first post here.

Just another little variation on the tab above.

You can chuck a capo on the 2nd fret and play it more like an Am and an Em. Give it a go and tell me what you think!

Tom