Jump to content

Photo

Colours


  • Please log in to reply
No replies to this topic

#1 Zephyr

Zephyr

    Stiff Upper Lip

  • Master Membership
  • 1702 posts
  • LocationBritannia

Posted 10 July 2009 - 02:57 AM

Colours

Tabbed By - Ben Jude - syndicate_7@hotmail.com

Tuning - CGCGCE
John uses his slide for almost all of the this song


Intro 0:00-2:30
Verse(No guitar) 2:30-3:08
Bridge 3:08-3:23
Verse/Chorus 3:23-6:28
Bridge 6:28-6:43
Break 6:43-7:07
Solo 7:07-9:05


Intro
Any help with this would be greatly appreciated


Bridge
The low open C is a background sound and
you could easily get away without playing them
|--------------------------|--------------------------|--------------------------------|
|-/12-10-------------------|-/12-10-------------------|-/12-10-------------------15-12-|
|--------10-12/12----------|--------10-12/12----------|--------10-12/12----------------|
|-----------------12-------|-----------------12-------|-----------------12-------------|
|--------------------------|--------------------------|--------------------------------|
|--------------------0-0-0-|--------------------0-0-0-|--------------------0-0-0-------|

|--------------------------|--------------------------|--------------------------15-15-15-15-15-15-15-15-|
|-/12-10-------------------|-/12-10-------------------|-/12-10-------------------15-15-15-15-15-15-15-15-|
|--------10-12/12----------|--------10-12/12----------|--------10-12/12----------15-15-15-15-15-15-15-15-|
|-----------------12-------|-----------------12-------|-----------------12-------15-15-15-15-15-15-15-15-|
|--------------------------|--------------------------|--------------------------------------------------|
|--------------------0-0-0-|--------------------0-0-0-|--------------------0-0-0-------------------------|


Verse/Chorus (very quick)
|-3-(3)-0-0-0-0-0-0-0-0-0-0-0-0-0-0-|
|-3-(3)-0-0-0-0-0-0-0-0-0-0-0-0-0-0-|
|-3-(3)-0-0-0-0-0-0-0-0-0-0-0-0-0-0-|
|-3-(3)-0-0-0-0-0-0-0-0-0-0-0-0-0-0-| x24
|-3-(3)-0-0-0-0-0-0-0-0-0-0-0-0-0-0-|
|-3-(3)-0-0-0-0-0-0-0-0-0-0-0-0-0-0-|

|-5-5-5-5-5-5-5-5-3-3-3-3-3-3-3-3-|-0-0-0-0-0-0-0-0-0-0-0-0-0-0-0-0-|
|-5-5-5-5-5-5-5-5-3-3-3-3-3-3-3-3-|-0-0-0-0-0-0-0-0-0-0-0-0-0-0-0-0-|
|-5-5-5-5-5-5-5-5-3-3-3-3-3-3-3-3-|-0-0-0-0-0-0-0-0-0-0-0-0-0-0-0-0-|
|-5-5-5-5-5-5-5-5-3-3-3-3-3-3-3-3-|-0-0-0-0-0-0-0-0-0-0-0-0-0-0-0-0-|
|-5-5-5-5-5-5-5-5-3-3-3-3-3-3-3-3-|-0-0-0-0-0-0-0-0-0-0-0-0-0-0-0-0-|
|-5-5-5-5-5-5-5-5-3-3-3-3-3-3-3-3-|-0-0-0-0-0-0-0-0-0-0-0-0-0-0-0-0-|

|-3-3-3-3-3-3-3-3-5-5-5-5-5-5-5-5-|-0-0-0-0-0-0-0-0-|
|-3-3-3-3-3-3-3-3-5-5-5-5-5-5-5-5-|-0-0-0-0-0-0-0-0-|
|-3-3-3-3-3-3-3-3-5-5-5-5-5-5-5-5-|-0-0-0-0-0-0-0-0-|
|-3-3-3-3-3-3-3-3-5-5-5-5-5-5-5-5-|-0-0-0-0-0-0-0-0-|
|-3-3-3-3-3-3-3-3-5-5-5-5-5-5-5-5-|-0-0-0-0-0-0-0-0-|
|-3-3-3-3-3-3-3-3-5-5-5-5-5-5-5-5-|-0-0-0-0-0-0-0-0-|

|-0-0-0-0-0-0-0-0-0-0-0-0-0-0-3-(3)-|
|-0-0-0-0-0-0-0-0-0-0-0-0-0-0-3-(3)-|
|-0-0-0-0-0-0-0-0-0-0-0-0-0-0-3-(3)-|
|-0-0-0-0-0-0-0-0-0-0-0-0-0-0-3-(3)-| x3
|-0-0-0-0-0-0-0-0-0-0-0-0-0-0-3-(3)-|
|-0-0-0-0-0-0-0-0-0-0-0-0-0-0-3-(3)-|

|-0-0-0-0-0-0-0-0-0-0-0-0-0-0-0-0-|
|-0-0-0-0-0-0-0-0-0-0-0-0-0-0-0-0-|
|-0-0-0-0-0-0-0-0-0-0-0-0-0-0-0-0-|
|-0-0-0-0-0-0-0-0-0-0-0-0-0-0-0-0-| 
|-0-0-0-0-0-0-0-0-0-0-0-0-0-0-0-0-|
|-0-0-0-0-0-0-0-0-0-0-0-0-0-0-0-0-|

|-3-(3)-0-0-0-0-0-0-0-0-0-0-0-0-0-0-|
|-3-(3)-0-0-0-0-0-0-0-0-0-0-0-0-0-0-|
|-3-(3)-0-0-0-0-0-0-0-0-0-0-0-0-0-0-|
|-3-(3)-0-0-0-0-0-0-0-0-0-0-0-0-0-0-| x4
|-3-(3)-0-0-0-0-0-0-0-0-0-0-0-0-0-0-|
|-3-(3)-0-0-0-0-0-0-0-0-0-0-0-0-0-0-|

|-0-0-0-0-0-0-0-0-0-0-0-0-0-0-3-(3)-|
|-0-0-0-0-0-0-0-0-0-0-0-0-0-0-3-(3)-|
|-0-0-0-0-0-0-0-0-0-0-0-0-0-0-3-(3)-|
|-0-0-0-0-0-0-0-0-0-0-0-0-0-0-3-(3)-| x8
|-0-0-0-0-0-0-0-0-0-0-0-0-0-0-3-(3)-|
|-0-0-0-0-0-0-0-0-0-0-0-0-0-0-3-(3)-|

|-0-0-0-0-0-0-0-0-0-0-0-0-0-0-0-0-|
|-0-0-0-0-0-0-0-0-0-0-0-0-0-0-0-0-|
|-0-0-0-0-0-0-0-0-0-0-0-0-0-0-0-0-|
|-0-0-0-0-0-0-0-0-0-0-0-0-0-0-0-0-| x4
|-0-0-0-0-0-0-0-0-0-0-0-0-0-0-0-0-|
|-0-0-0-0-0-0-0-0-0-0-0-0-0-0-0-0-|

|-0-0-0-0-0-0-0-0-0-0-0-0-0-0-3-(3)-|
|-0-0-0-0-0-0-0-0-0-0-0-0-0-0-3-(3)-|
|-0-0-0-0-0-0-0-0-0-0-0-0-0-0-3-(3)-|
|-0-0-0-0-0-0-0-0-0-0-0-0-0-0-3-(3)-| x4
|-0-0-0-0-0-0-0-0-0-0-0-0-0-0-3-(3)-|
|-0-0-0-0-0-0-0-0-0-0-0-0-0-0-3-(3)-|

|-5-5-5-5-5-5-5-5-3-3-3-3-3-3-3-3-|-0-0-0-0-0-0-0-0-0-0-0-0-0-0-0-0-|
|-5-5-5-5-5-5-5-5-3-3-3-3-3-3-3-3-|-0-0-0-0-0-0-0-0-0-0-0-0-0-0-0-0-|
|-5-5-5-5-5-5-5-5-3-3-3-3-3-3-3-3-|-0-0-0-0-0-0-0-0-0-0-0-0-0-0-0-0-|
|-5-5-5-5-5-5-5-5-3-3-3-3-3-3-3-3-|-0-0-0-0-0-0-0-0-0-0-0-0-0-0-0-0-|
|-5-5-5-5-5-5-5-5-3-3-3-3-3-3-3-3-|-0-0-0-0-0-0-0-0-0-0-0-0-0-0-0-0-|
|-5-5-5-5-5-5-5-5-3-3-3-3-3-3-3-3-|-0-0-0-0-0-0-0-0-0-0-0-0-0-0-0-0-|

|-3-3-3-3-3-3-3-3-5-5-5-5-5-5-5-5-|-0-|
|-3-3-3-3-3-3-3-3-5-5-5-5-5-5-5-5-|-0-|
|-3-3-3-3-3-3-3-3-5-5-5-5-5-5-5-5-|-0-|
|-3-3-3-3-3-3-3-3-5-5-5-5-5-5-5-5-|-0-|
|-3-3-3-3-3-3-3-3-5-5-5-5-5-5-5-5-|-0-|
|-3-3-3-3-3-3-3-3-5-5-5-5-5-5-5-5-|-0-|
Let Ring----^


Bridge
|--------------------------|--------------------------|--------------------------------|
|-/12-10-------------------|-/12-10-------------------|-/12-10-------------------15-12-|
|--------10-12/12----------|--------10-12/12----------|--------10-12/12----------------|
|-----------------12-------|-----------------12-------|-----------------12-------------|
|--------------------------|--------------------------|--------------------------------|
|--------------------0-0-0-|--------------------0-0-0-|--------------------0-0-0-------|

|--------------------------|--------------------------|--------------------------15-15-15-15-15-15-15-15-|
|-/12-10-------------------|-/12-10-------------------|-/12-10-------------------15-15-15-15-15-15-15-15-|
|--------10-12/12----------|--------10-12/12----------|--------10-12/12----------15-15-15-15-15-15-15-15-|
|-----------------12-------|-----------------12-------|-----------------12-------15-15-15-15-15-15-15-15-|
|--------------------------|--------------------------|--------------------------------------------------|
|--------------------0-0-0-|--------------------0-0-0-|--------------------0-0-0-------------------------|


Break
|-------------|-------------------------------|-------------15-15-15-15-15-15-15-15-|
|-12-10-------|-12-10-10-10-10-10-10-10-10-10-|-12-10-------15-15-15-15-15-15-15-15-|
|-------10-12-|-------------------------------|-------10-12-15-15-15-15-15-15-15-15-|
|-------------|-------------------------------|-------------15-15-15-15-15-15-15-15-|
|-------------|-------------------------------|-------------------------------------|
|-------------|-------------------------------|-------------------------------------|
Tremelo Picking------>|______________________|

|-------------|-------------------------------|-------------15-15-15-15-15-15-15-15-|
|-12-10-------|-12-10-10-10-10-10-10-10-10-10-|-12-10-------15-15-15-15-15-15-15-15-|
|-------10-12-|-------------------------------|-------10-12-15-15-15-15-15-15-15-15-|
|-------------|-------------------------------|-------------15-15-15-15-15-15-15-15-|
|-------------|-------------------------------|-------------------------------------|
|-------------|-------------------------------|-------------------------------------|
Tremelo Picking------>|______________________|

|----------------|-----------------|----------------|-----------------|
|----------------|-----------------|----------------|-----------------|
|-3-5-3-5-3-5-3--|-3-5-3-5-3-5-10--|-3-5-3-5-3-5-3--|-5-5-5-5-3-3-3-3-|
|-3-5-3-5-3-5-3--|-3-5-3-5-3-5-10--|-3-5-3-5-3-5-3--|-5-5-5-5-3-3-3-3-|
|-3-5-3-5-3-5-3--|-3-5-3-5-3-5-10--|-3-5-3-5-3-5-3--|-5-5-5-5-3-3-3-3-|
|-3-5-3-5-3-5-3--|-3-5-3-5-3-5-10--|-3-5-3-5-3-5-3--|-5-5-5-5-3-3-3-3-|

|----------------|-----------------|----------------|-----------------|
|----------------|-----------------|----------------|-----------------|
|-3-5-3-5-3-5-3--|-3-5-3-5-3-5-10--|-3-5-3-5-3-5-3--|-3-3-3-3-5-5-5-5-|
|-3-5-3-5-3-5-3--|-3-5-3-5-3-5-10--|-3-5-3-5-3-5-3--|-3-3-3-3-5-5-5-5-|
|-3-5-3-5-3-5-3--|-3-5-3-5-3-5-10--|-3-5-3-5-3-5-3--|-3-3-3-3-5-5-5-5-|
|-3-5-3-5-3-5-3--|-3-5-3-5-3-5-10--|-3-5-3-5-3-5-3--|-3-3-3-3-5-5-5-5-|
Not mine, just transferring.