Sign in to follow this  
Followers 0

Hello

1 post in this topic

Posted (edited) · Report post

[code]Hello

DADGBe w/ capo on 2 (everything relative to capo)

Intro (sounds right, if not just fool around with those chords)

|--------------------------------|
|-----3--------3--------3------3-|
|-2-2------2-2------2-2----2-2---|
|--0--------0--------0----0---0--|
|---------------------------3----|
|----0--------0--------3---------|

Intro 2/Chorus

|-------------------------------------------------|
|-1h3p1-----1---1-----------1--------1-1------1---|
|-------2---0h2-0h2p0---0-0-0--0---0-0-0--0-------|
|---------0-----------3---2-2----2---0-0----0-----|
|------------------------------------3-3----------|
|-----------------------------------------------0-|

Verse (just pick those 3 chords)

|---------| |----0---|
|-3-3-3-3-| |------3-|
|-2-2-2-2-| sometimes he does this |--2-----|
|-0-0-0-0-| |-0------|
|-0-0-0-3-| |--------|
|-0-0-3---| |---0----|

Solo

|-----------------------------------------------------|
|-1h3------1h3p1--------------------------------------|
|----------------2---2h3-2---2------------------------|
|------------------------------0--/3-2-----/3---2-----|
|---------------------------------------------------3-|
|-----------------------------------------------------|

|-8h10-----10br---8h10p8------------------------------|
|------------------------10p8-10p8-10/11\\10-----------|
|-----------------------------------------------------|
|-----------------------------------------------------|
|-----------------------------------------------------|
|-----------------------------------------------------|

|-0-0h1p0----------0-1--0-------0---0-1--0---0-1-0-----8-----8-----8-|
|---------3-1-------------3-1--------------3-------5h6---5h6---5h6---|
|-------------2---------------2--------------------------------------|
|--------------------------------------------------------------------|
|--------------------------------------------------------------------|
|--------------------------------------------------------------------|

Outro

|---------------------------------------|
|---------------------------------------|
|--------------0000---------------------| then just play the same 3 chords
|-000000--2222--------------------------| from the beginning
|-----------------------------3333-0000-|
|---------------------333333------------|[/code]
Not mine, just transferring. Edited by Zephyr

Share this post


Link to post
Share on other sites

Create an account or sign in to comment

You need to be a member in order to leave a comment

Create an account

Sign up for a new account in our community. It's easy!


Register a new account

Sign in

Already have an account? Sign in here.


Sign In Now
Sign in to follow this  
Followers 0